» » »

Mexico Lyrics

Mexico by Steve Forbert  

CD  ·  DVD  ·  Sheet music


Mexico Intro: first part of chorus:

E ------------------------------ E
-----------------------------------------
B ------------------------------- B
----------------------------------------
G ---------------------------------- G
-----------------------------------------
D ---------------------------------- D
---0--0--0^2--0---0--0^2-----
A -----------0---0^3---0----------------- A
-----3-------------3----------0---0--0^3--0---0---0^3-
E --0---3-------------------------------- E
--------------------------------------3--------------3-

All verses are virtually the same....

Am
Sometimes i'm so weary,
Am
Sometimes i'm so low,
Dm
If not for your sweet love ,
Am
I think i'd move to mexico.
Am
T.v. shows a city
Am
An' ev'rything is down,
Dm
Find your friends an' fam'lies
Am
'neath this earthquake shaken town.


Chorus:
Dm Am
Mexico....mexico
F
Down the highway,
Em Em7
Down the line,
F
'cross the border,
Em Em7
Back in time
Am
To mexico....



CD  ·  DVD  ·  Sheet music
Comments

comments powered by Disqus